Page 1 of 1

Bash Tash and fun :D

Posted: Wed Sep 19, 2018 7:19 am
by vincitytaymodaimo
A few people have messaged me asking for bass tabs for Nashville - apparently the ones on the web are wrong... As with Peggy in the earlier post, I've included tabs for the basic parts below - its a straight forward one so the variations should be easy to work out from these. Enjoy!

Tarrant

Nashville Tennessee

Verse
G|----------------------------------------------------------------
D|--------------4-----------------------------4-----------------
A|------4-5-7----7-5-4---------------4-5-7---7-5-4----------
E|-5-7-------------------7-5-5---5-7------------------7-5-5---

Bridge
G|--------------------
D|--------------------
A|-5--4--7-----------
E|-----------4--------

Chorus
G|---------------------------------------------------------------
D|---------------------------7-6-4--------3-4-2---------------
A|-5--7-----7--5----5--7----------5--4---------5--5—7-----
E|---------5-----------------------------------------------------

Middle 8
G|-----------------------------------------------------------------------
D|---------------------------------------------------------4-------------
A|------5-5^7------7-7-7^5------------5-5-------4-5-7---7-5-4-----
E|-7-7----------5-5-----------5----7-7-------5-7-----------------7-5-5--

Re: Bash Tash and fun :D

Posted: Fri Sep 28, 2018 4:36 pm
by smige2
Thanks Tarrant!